  0
SECTION
  2
HEADER
  9
$ACADVER
  1
AC1009
  9
$INSBASE
 10
84.64705250511497
 20
153.1594545051149
 30
0.0
  9
$EXTMIN
 10
84.56482785236079
 20
153.0772298523608
 30
0.0
  9
$EXTMAX
 10
192.6096929999999
 20
260.122095
 30
0.0
  9
$LIMMIN
 10
0.0
 20
0.0
  9
$LIMMAX
 10
410.0
 20
287.0
  9
$ORTHOMODE
 70
     0
  9
$REGENMODE
 70
     0
  9
$FILLMODE
 70
     1
  9
$QTEXTMODE
 70
     0
  9
$MIRRTEXT
 70
     0
  9
$DRAGMODE
 70
     2
  9
$LTSCALE
 40
1.0
  9
$OSMODE
 70
     0
  9
$ATTMODE
 70
     1
  9
$TEXTSIZE
 40
3.5
  9
$TRACEWID
 40
1.0
  9
$TEXTSTYLE
  7
STANDARD
  9
$CLAYER
  8
4AN
  9
$CELTYPE
  6
BYLAYER
  9
$CECOLOR
 62
   256
  9
$DIMSCALE
 40
1.0
  9
$DIMASZ
 40
3.5
  9
$DIMEXO
 40
0.1
  9
$DIMDLI
 40
7.0
  9
$DIMRND
 40
0.0
  9
$DIMDLE
 40
0.0
  9
$DIMEXE
 40
1.8
  9
$DIMTP
 40
0.0
  9
$DIMTM
 40
0.0
  9
$DIMTXT
 40
3.5
  9
$DIMCEN
 40
1.5
  9
$DIMTSZ
 40
0.0
  9
$DIMTOL
 70
     0
  9
$DIMLIM
 70
     0
  9
$DIMTIH
 70
     0
  9
$DIMTOH
 70
     0
  9
$DIMSE1
 70
     0
  9
$DIMSE2
 70
     0
  9
$DIMTAD
 70
     0
  9
$DIMZIN
 70
     0
  9
$DIMBLK
  1

  9
$DIMASO
 70
     1
  9
$DIMSHO
 70
     0
  9
$DIMPOST
  1

  9
$DIMAPOST
  1

  9
$DIMALT
 70
     0
  9
$DIMALTD
 70
     2
  9
$DIMALTF
 40
25.39999999999999
  9
$DIMLFAC
 40
1.0
  9
$DIMTOFL
 70
     0
  9
$DIMTVP
 40
0.0
  9
$DIMTIX
 70
     0
  9
$DIMSOXD
 70
     0
  9
$DIMSAH
 70
     0
  9
$DIMBLK1
  1

  9
$DIMBLK2
  1

  9
$DIMSTYLE
  2
*UNNAMED
  9
$DIMCLRD
 70
     0
  9
$DIMCLRE
 70
     0
  9
$DIMCLRT
 70
     0
  9
$DIMTFAC
 40
1.0
  9
$DIMGAP
 40
0.09
  9
$LUNITS
 70
     2
  9
$LUPREC
 70
     2
  9
$SKETCHINC
 40
1.0
  9
$FILLETRAD
 40
0.0
  9
$AUNITS
 70
     0
  9
$AUPREC
 70
     0
  9
$MENU
  1
genius11
  9
$ELEVATION
 40
0.0
  9
$PELEVATION
 40
0.0
  9
$THICKNESS
 40
0.0
  9
$LIMCHECK
 70
     0
  9
$BLIPMODE
 70
     0
  9
$CHAMFERA
 40
0.0
  9
$CHAMFERB
 40
0.0
  9
$SKPOLY
 70
     0
  9
$TDCREATE
 40
2449316.391249999
  9
$TDUPDATE
 40
2449394.636469444
  9
$TDINDWG
 40
0.0039090278
  9
$TDUSRTIMER
 40
0.0039090278
  9
$USRTIMER
 70
     1
  9
$ANGBASE
 50
0.0
  9
$ANGDIR
 70
     0
  9
$PDMODE
 70
     3
  9
$PDSIZE
 40
0.0
  9
$PLINEWID
 40
0.0
  9
$COORDS
 70
     2
  9
$SPLFRAME
 70
     0
  9
$SPLINETYPE
 70
     6
  9
$SPLINESEGS
 70
     8
  9
$ATTDIA
 70
     1
  9
$ATTREQ
 70
     1
  9
$HANDLING
 70
     0
  9
$HANDSEED
  5
A63
  9
$SURFTAB1
 70
     6
  9
$SURFTAB2
 70
     6
  9
$SURFTYPE
 70
     6
  9
$SURFU
 70
     6
  9
$SURFV
 70
     6
  9
$UCSNAME
  2

  9
$UCSORG
 10
0.0
 20
0.0
 30
0.0
  9
$UCSXDIR
 10
1.0
 20
0.0
 30
0.0
  9
$UCSYDIR
 10
0.0
 20
1.0
 30
0.0
  9
$PUCSNAME
  2

  9
$PUCSORG
 10
0.0
 20
0.0
 30
0.0
  9
$PUCSXDIR
 10
1.0
 20
0.0
 30
0.0
  9
$PUCSYDIR
 10
0.0
 20
1.0
 30
0.0
  9
$USERI1
 70
     0
  9
$USERI2
 70
     0
  9
$USERI3
 70
     0
  9
$USERI4
 70
     0
  9
$USERI5
 70
     0
  9
$USERR1
 40
0.0
  9
$USERR2
 40
0.0
  9
$USERR3
 40
0.0
  9
$USERR4
 40
0.0
  9
$USERR5
 40
0.0
  9
$WORLDVIEW
 70
     1
  9
$SHADEDGE
 70
     3
  9
$SHADEDIF
 70
    70
  9
$TILEMODE
 70
     1
  9
$MAXACTVP
 70
    16
  9
$PINSBASE
 10
0.0
 20
0.0
 30
0.0
  9
$PLIMCHECK
 70
     0
  9
$PEXTMIN
 10
1.000000000000000E+20
 20
1.000000000000000E+20
 30
1.000000000000000E+20
  9
$PEXTMAX
 10
-1.000000000000000E+20
 20
-1.000000000000000E+20
 30
-1.000000000000000E+20
  9
$PLIMMIN
 10
0.0
 20
0.0
  9
$PLIMMAX
 10
12.0
 20
9.0
  9
$UNITMODE
 70
     0
  9
$VISRETAIN
 70
     0
  9
$PLINEGEN
 70
     0
  9
$PSLTSCALE
 70
     0
  9
$TREEDEPTH
 70
  3020
  9
$DWGCODEPAGE
  3
undefined
  0
ENDSEC
  0
SECTION
  2
TABLES
  0
TABLE
  2
VPORT
 70
     2
  0
VPORT
  2
*ACTIVE
 70
     0
 10
0.0
 20
0.0
 11
1.0
 21
1.0
 12
158.4899356419452
 22
211.0447654386471
 13
0.0
 23
0.0
 14
1.0
 24
1.0
 15
10.0
 25
10.0
 16
0.0
 26
0.0
 36
1.0
 17
0.0
 27
0.0
 37
0.0
 40
115.7706218670643
 41
1.275675675675675
 42
50.0
 43
0.0
 44
0.0
 50
0.0
 51
0.0
 71
     0
 72
   100
 73
     1
 74
     0
 75
     0
 76
     0
 77
     0
 78
     0
  0
ENDTAB
  0
TABLE
  2
LTYPE
 70
     2
  0
LTYPE
  2
CONTINUOUS
 70
    64
  3
Ausgezogene Linie
 72
    65
 73
     0
 40
0.0
  0
LTYPE
  2
GEN
 70
    64
  3
----------------------
 72
    65
 73
     2
 40
10000000000.0
 49
0.0
 49
10000000000.0
  0
ENDTAB
  0
TABLE
  2
LAYER
 70
     4
  0
LAYER
  2
0
 70
     0
 62
     7
  6
GEN
  0
LAYER
  2
ITEM_50
 70
    64
 62
     7
  6
CONTINUOUS
  0
LAYER
  2
ITEM_HILFE
 70
    64
 62
     3
  6
CONTINUOUS
  0
LAYER
  2
4AN
 70
     0
 62
     3
  6
CONTINUOUS
  0
ENDTAB
  0
TABLE
  2
STYLE
 70
     1
  0
STYLE
  2
STANDARD
 70
     0
 40
0.0
 41
1.0
 50
0.0
 71
     0
 42
3.5
  3
txt8
  4

  0
ENDTAB
  0
TABLE
  2
VIEW
 70
     0
  0
ENDTAB
  0
TABLE
  2
UCS
 70
     0
  0
ENDTAB
  0
TABLE
  2
APPID
 70
     1
  0
APPID
  2
ACAD
 70
    64
  0
ENDTAB
  0
TABLE
  2
DIMSTYLE
 70
     0
  0
ENDTAB
  0
ENDSEC
  0
SECTION
  2
BLOCKS
  0
ENDSEC
  0
SECTION
  2
ENTITIES
  0
POINT
  8
ITEM_HILFE
 10
86.611547
 20
215.123949
 30
0.0
  0
POINT
  8
ITEM_HILFE
 10
86.611547
 20
215.123949
 30
0.0
  0
POINT
  8
ITEM_HILFE
 10
106.611547
 20
235.123949
 30
0.0
  0
POINT
  8
ITEM_HILFE
 10
106.611547
 20
235.123949
 30
0.0
  0
POINT
  8
ITEM_HILFE
 10
146.611547
 20
235.123949
 30
0.0
  0
POINT
  8
ITEM_HILFE
 10
146.611547
 20
235.123949
 30
0.0
  0
POINT
  8
ITEM_HILFE
 10
166.611547
 20
215.123949
 30
0.0
  0
POINT
  8
ITEM_HILFE
 10
166.611547
 20
215.123949
 30
0.0
  0
CIRCLE
  8
ITEM_50
 10
106.611547
 20
215.123949
 30
0.0
 40
3.399999999999999
  0
CIRCLE
  8
ITEM_50
 10
146.611547
 20
215.123949
 30
0.0
 40
3.399999999999999
  0
POINT
  8
ITEM_HILFE
 10
106.611547
 20
215.123949
 30
0.0
  0
POINT
  8
ITEM_HILFE
 10
146.611547
 20
215.123949
 30
0.0
  0
POINT
  8
ITEM_HILFE
 10
106.611547
 20
175.123949
 30
0.0
  0
CIRCLE
  8
ITEM_50
 10
106.611547
 20
175.123949
 30
0.0
 40
3.399999999999999
  0
POINT
  8
ITEM_HILFE
 10
146.611547
 20
175.123949
 30
0.0
  0
POINT
  8
ITEM_HILFE
 10
146.611547
 20
175.123949
 30
0.0
  0
POINT
  8
ITEM_HILFE
 10
106.611547
 20
155.123949
 30
0.0
  0
POINT
  8
ITEM_HILFE
 10
106.611547
 20
155.123949
 30
0.0
  0
POINT
  8
ITEM_HILFE
 10
86.611547
 20
175.123949
 30
0.0
  0
POINT
  8
ITEM_HILFE
 10
86.611547
 20
175.123949
 30
0.0
  0
POLYLINE
  8
ITEM_50
 66
     1
 10
0.0
 20
0.0
 30
0.0
  0
VERTEX
  8
ITEM_50
 10
86.613402
 20
159.210536
 30
0.0
 42
0.426814
  0
VERTEX
  8
ITEM_50
 10
90.69813399999999
 20
155.1258029999999
 30
0.0
  0
VERTEX
  8
ITEM_50
 10
101.1114599999999
 20
155.125198
 30
0.0
 42
0.414231
  0
VERTEX
  8
ITEM_50
 10
102.611547
 20
156.625198
 30
0.0
  0
VERTEX
  8
ITEM_50
 10
102.611547
 20
158.623949
 30
0.0
 42
0.414214
  0
VERTEX
  8
ITEM_50
 10
101.611547
 20
159.623949
 30
0.0
  0
VERTEX
  8
ITEM_50
 10
100.111547
 20
159.623949
 30
0.0
 42
0.414214
  0
VERTEX
  8
ITEM_50
 10
99.611547
 20
159.123949
 30
0.0
  0
VERTEX
  8
ITEM_50
 10
99.611547
 20
157.623949
 30
0.0
 42
-0.414214
  0
VERTEX
  8
ITEM_50
 10
99.111547
 20
157.123949
 30
0.0
 42
-0.414214
  0
VERTEX
  8
ITEM_50
 10
96.611547
 20
159.623949
 30
0.0
  0
VERTEX
  8
ITEM_50
 10
96.611547
 20
160.931561
 30
0.0
 42
-0.198912
  0
VERTEX
  8
ITEM_50
 10
98.076013
 20
164.467095
 30
0.0
  0
VERTEX
  8
ITEM_50
 10
99.518402
 20
165.9094829999999
 30
0.0
 42
-0.198912
  0
VERTEX
  8
ITEM_50
 10
103.0539359999999
 20
167.373949
 30
0.0
  0
VERTEX
  8
ITEM_50
 10
110.169159
 20
167.373949
 30
0.0
 42
-0.198912
  0
VERTEX
  8
ITEM_50
 10
113.7046929999999
 20
165.9094829999999
 30
0.0
  0
VERTEX
  8
ITEM_50
 10
115.147081
 20
164.467095
 30
0.0
 42
-0.198912
  0
VERTEX
  8
ITEM_50
 10
116.611547
 20
160.931561
 30
0.0
  0
VERTEX
  8
ITEM_50
 10
116.611547
 20
159.623949
 30
0.0
 42
-0.414214
  0
VERTEX
  8
ITEM_50
 10
114.111547
 20
157.123949
 30
0.0
 42
-0.414214
  0
VERTEX
  8
ITEM_50
 10
113.611547
 20
157.623949
 30
0.0
  0
VERTEX
  8
ITEM_50
 10
113.611547
 20
159.123949
 30
0.0
 42
0.414214
  0
VERTEX
  8
ITEM_50
 10
113.111547
 20
159.623949
 30
0.0
  0
VERTEX
  8
ITEM_50
 10
111.611547
 20
159.623949
 30
0.0
 42
0.414214
  0
VERTEX
  8
ITEM_50
 10
110.611547
 20
158.623949
 30
0.0
  0
VERTEX
  8
ITEM_50
 10
110.611547
 20
156.624559
 30
0.0
 42
0.414197
  0
VERTEX
  8
ITEM_50
 10
112.11146
 20
155.124559
 30
0.0
  0
VERTEX
  8
ITEM_50
 10
122.611547
 20
155.123949
 30
0.0
  0
VERTEX
  8
ITEM_50
 10
124.9546929999999
 20
155.123949
 30
0.0
 42
0.198912
  0
VERTEX
  8
ITEM_50
 10
127.7831199999999
 20
156.295522
 30
0.0
  0
VERTEX
  8
ITEM_50
 10
142.72246
 20
171.234862
 30
0.0
 42
0.414214
  0
VERTEX
  8
ITEM_50
 10
142.72246
 20
173.356182
 30
0.0
  0
VERTEX
  8
ITEM_50
 10
141.3082469999999
 20
174.770396
 30
0.0
 42
0.414214
  0
VERTEX
  8
ITEM_50
 10
139.894033
 20
174.770396
 30
0.0
  0
VERTEX
  8
ITEM_50
 10
138.8333729999999
 20
173.709735
 30
0.0
 42
0.414214
  0
VERTEX
  8
ITEM_50
 10
138.8333729999999
 20
173.002629
 30
0.0
  0
VERTEX
  8
ITEM_50
 10
139.894033
 20
171.941968
 30
0.0
 42
-0.414214
  0
VERTEX
  8
ITEM_50
 10
139.894033
 20
171.234862
 30
0.0
 42
-0.414214
  0
VERTEX
  8
ITEM_50
 10
136.3584989999999
 20
171.234862
 30
0.0
  0
VERTEX
  8
ITEM_50
 10
135.4338779999999
 20
172.1594829999999
 30
0.0
 42
-0.198912
  0
VERTEX
  8
ITEM_50
 10
133.969412
 20
175.6950169999999
 30
0.0
  0
VERTEX
  8
ITEM_50
 10
133.969412
 20
177.734862
 30
0.0
 42
-0.198912
  0
VERTEX
  8
ITEM_50
 10
135.4338779999999
 20
181.270396
 30
0.0
  0
VERTEX
  8
ITEM_50
 10
140.465101
 20
186.3016189999999
 30
0.0
 42
-0.198912
  0
VERTEX
  8
ITEM_50
 10
144.000635
 20
187.766085
 30
0.0
  0
VERTEX
  8
ITEM_50
 10
146.04048
 20
187.766085
 30
0.0
 42
-0.198912
  0
VERTEX
  8
ITEM_50
 10
149.5760129999999
 20
186.3016189999999
 30
0.0
  0
VERTEX
  8
ITEM_50
 10
150.500635
 20
185.3769969999999
 30
0.0
 42
-0.414214
  0
VERTEX
  8
ITEM_50
 10
150.500635
 20
181.8414629999999
 30
0.0
 42
-0.414214
  0
VERTEX
  8
ITEM_50
 10
149.793528
 20
181.8414629999999
 30
0.0
  0
VERTEX
  8
ITEM_50
 10
148.7328679999999
 20
182.9021239999999
 30
0.0
 42
0.414214
  0
VERTEX
  8
ITEM_50
 10
148.025761
 20
182.9021239999999
 30
0.0
  0
VERTEX
  8
ITEM_50
 10
146.965101
 20
181.8414629999999
 30
0.0
 42
0.414214
  0
VERTEX
  8
ITEM_50
 10
146.965101
 20
180.4272499999999
 30
0.0
  0
VERTEX
  8
ITEM_50
 10
148.3793139999999
 20
179.0130359999999
 30
0.0
 42
0.414214
  0
VERTEX
  8
ITEM_50
 10
150.500635
 20
179.0130359999999
 30
0.0
  0
VERTEX
  8
ITEM_50
 10
165.439975
 20
193.9523759999999
 30
0.0
 42
0.198912
  0
VERTEX
  8
ITEM_50
 10
166.611547
 20
196.7808029999999
 30
0.0
  0
VERTEX
  8
ITEM_50
 10
166.611547
 20
199.123949
 30
0.0
  0
VERTEX
  8
ITEM_50
 10
166.610937
 20
209.624036
 30
0.0
 42
0.414197
  0
VERTEX
  8
ITEM_50
 10
165.110937
 20
211.123949
 30
0.0
  0
VERTEX
  8
ITEM_50
 10
163.111547
 20
211.123949
 30
0.0
 42
0.414214
  0
VERTEX
  8
ITEM_50
 10
162.111547
 20
210.123949
 30
0.0
  0
VERTEX
  8
ITEM_50
 10
162.111547
 20
208.623949
 30
0.0
 42
0.414214
  0
VERTEX
  8
ITEM_50
 10
162.611547
 20
208.123949
 30
0.0
  0
VERTEX
  8
ITEM_50
 10
164.111547
 20
208.123949
 30
0.0
 42
-0.414214
  0
VERTEX
  8
ITEM_50
 10
164.611547
 20
207.623949
 30
0.0
  0
VERTEX
  8
ITEM_50
 10
164.611547
 20
207.623949
 30
0.0
 42
-0.414214
  0
VERTEX
  8
ITEM_50
 10
162.111547
 20
205.123949
 30
0.0
  0
VERTEX
  8
ITEM_50
 10
160.803936
 20
205.123949
 30
0.0
 42
-0.198912
  0
VERTEX
  8
ITEM_50
 10
157.268402
 20
206.5884149999999
 30
0.0
  0
VERTEX
  8
ITEM_50
 10
155.8260129999999
 20
208.0308029999999
 30
0.0
 42
-0.198912
  0
VERTEX
  8
ITEM_50
 10
154.361547
 20
211.566337
 30
0.0
  0
VERTEX
  8
ITEM_50
 10
154.361547
 20
218.6815609999999
 30
0.0
 42
-0.198912
  0
VERTEX
  8
ITEM_50
 10
155.8260129999999
 20
222.217095
 30
0.0
  0
VERTEX
  8
ITEM_50
 10
157.268402
 20
223.6594829999999
 30
0.0
 42
-0.198912
  0
VERTEX
  8
ITEM_50
 10
160.803936
 20
225.123949
 30
0.0
  0
VERTEX
  8
ITEM_50
 10
162.111547
 20
225.123949
 30
0.0
 42
-0.414214
  0
VERTEX
  8
ITEM_50
 10
164.611547
 20
222.623949
 30
0.0
  0
VERTEX
  8
ITEM_50
 10
164.611547
 20
222.623949
 30
0.0
 42
-0.414214
  0
VERTEX
  8
ITEM_50
 10
164.111547
 20
222.123949
 30
0.0
  0
VERTEX
  8
ITEM_50
 10
162.611547
 20
222.123949
 30
0.0
 42
0.414214
  0
VERTEX
  8
ITEM_50
 10
162.111547
 20
221.623949
 30
0.0
  0
VERTEX
  8
ITEM_50
 10
162.111547
 20
220.123949
 30
0.0
 42
0.414214
  0
VERTEX
  8
ITEM_50
 10
163.111547
 20
219.123949
 30
0.0
  0
VERTEX
  8
ITEM_50
 10
165.110298
 20
219.123949
 30
0.0
 42
0.414231
  0
VERTEX
  8
ITEM_50
 10
166.610298
 20
220.6240359999999
 30
0.0
  0
VERTEX
  8
ITEM_50
 10
166.6096929999999
 20
231.037362
 30
0.0
 42
0.426814
  0
VERTEX
  8
ITEM_50
 10
162.524961
 20
235.122095
 30
0.0
  0
VERTEX
  8
ITEM_50
 10
152.111547
 20
235.122095
 30
0.0
 42
0.414214
  0
VERTEX
  8
ITEM_50
 10
150.611547
 20
233.622095
 30
0.0
  0
VERTEX
  8
ITEM_50
 10
150.611547
 20
231.623949
 30
0.0
 42
0.414214
  0
VERTEX
  8
ITEM_50
 10
151.611547
 20
230.623949
 30
0.0
  0
VERTEX
  8
ITEM_50
 10
153.111547
 20
230.623949
 30
0.0
 42
0.414214
  0
VERTEX
  8
ITEM_50
 10
153.611547
 20
231.123949
 30
0.0
  0
VERTEX
  8
ITEM_50
 10
153.611547
 20
232.623949
 30
0.0
 42
-0.414214
  0
VERTEX
  8
ITEM_50
 10
154.111547
 20
233.123949
 30
0.0
 42
-0.414214
  0
VERTEX
  8
ITEM_50
 10
156.611547
 20
230.623949
 30
0.0
  0
VERTEX
  8
ITEM_50
 10
156.611547
 20
229.316337
 30
0.0
 42
-0.198912
  0
VERTEX
  8
ITEM_50
 10
155.147081
 20
225.7808029999999
 30
0.0
  0
VERTEX
  8
ITEM_50
 10
153.7046929999999
 20
224.3384149999999
 30
0.0
 42
-0.198912
  0
VERTEX
  8
ITEM_50
 10
150.169159
 20
222.873949
 30
0.0
  0
VERTEX
  8
ITEM_50
 10
143.053936
 20
222.873949
 30
0.0
 42
-0.198912
  0
VERTEX
  8
ITEM_50
 10
139.518402
 20
224.3384149999999
 30
0.0
  0
VERTEX
  8
ITEM_50
 10
138.0760129999999
 20
225.7808029999999
 30
0.0
 42
-0.198912
  0
VERTEX
  8
ITEM_50
 10
136.611547
 20
229.316337
 30
0.0
  0
VERTEX
  8
ITEM_50
 10
136.611547
 20
230.623949
 30
0.0
 42
-0.414214
  0
VERTEX
  8
ITEM_50
 10
139.111547
 20
233.123949
 30
0.0
 42
-0.414214
  0
VERTEX
  8
ITEM_50
 10
139.611547
 20
232.623949
 30
0.0
  0
VERTEX
  8
ITEM_50
 10
139.611547
 20
231.123949
 30
0.0
 42
0.414214
  0
VERTEX
  8
ITEM_50
 10
140.111547
 20
230.623949
 30
0.0
  0
VERTEX
  8
ITEM_50
 10
141.611547
 20
230.623949
 30
0.0
 42
0.414214
  0
VERTEX
  8
ITEM_50
 10
142.611547
 20
231.623949
 30
0.0
  0
VERTEX
  8
ITEM_50
 10
142.611547
 20
233.622095
 30
0.0
 42
0.414214
  0
VERTEX
  8
ITEM_50
 10
141.111547
 20
235.122095
 30
0.0
  0
VERTEX
  8
ITEM_50
 10
112.111547
 20
235.122095
 30
0.0
 42
0.414214
  0
VERTEX
  8
ITEM_50
 10
110.611547
 20
233.622095
 30
0.0
  0
VERTEX
  8
ITEM_50
 10
110.611547
 20
231.623949
 30
0.0
 42
0.414214
  0
VERTEX
  8
ITEM_50
 10
111.611547
 20
230.623949
 30
0.0
  0
VERTEX
  8
ITEM_50
 10
113.111547
 20
230.623949
 30
0.0
 42
0.414214
  0
VERTEX
  8
ITEM_50
 10
113.611547
 20
231.123949
 30
0.0
  0
VERTEX
  8
ITEM_50
 10
113.611547
 20
232.623949
 30
0.0
 42
-0.414214
  0
VERTEX
  8
ITEM_50
 10
114.111547
 20
233.123949
 30
0.0
 42
-0.414214
  0
VERTEX
  8
ITEM_50
 10
116.611547
 20
230.623949
 30
0.0
  0
VERTEX
  8
ITEM_50
 10
116.611547
 20
229.316337
 30
0.0
 42
-0.198912
  0
VERTEX
  8
ITEM_50
 10
115.147081
 20
225.7808029999999
 30
0.0
  0
VERTEX
  8
ITEM_50
 10
113.7046929999999
 20
224.3384149999999
 30
0.0
 42
-0.198912
  0
VERTEX
  8
ITEM_50
 10
110.169159
 20
222.873949
 30
0.0
  0
VERTEX
  8
ITEM_50
 10
103.0539359999999
 20
222.873949
 30
0.0
 42
-0.198912
  0
VERTEX
  8
ITEM_50
 10
99.518402
 20
224.3384149999999
 30
0.0
  0
VERTEX
  8
ITEM_50
 10
98.076013
 20
225.7808029999999
 30
0.0
 42
-0.198912
  0
VERTEX
  8
ITEM_50
 10
96.611547
 20
229.316337
 30
0.0
  0
VERTEX
  8
ITEM_50
 10
96.611547
 20
230.623949
 30
0.0
 42
-0.414214
  0
VERTEX
  8
ITEM_50
 10
99.111547
 20
233.123949
 30
0.0
 42
-0.414214
  0
VERTEX
  8
ITEM_50
 10
99.611547
 20
232.623949
 30
0.0
  0
VERTEX
  8
ITEM_50
 10
99.611547
 20
231.123949
 30
0.0
 42
0.414214
  0
VERTEX
  8
ITEM_50
 10
100.111547
 20
230.623949
 30
0.0
  0
VERTEX
  8
ITEM_50
 10
101.611547
 20
230.623949
 30
0.0
 42
0.414214
  0
VERTEX
  8
ITEM_50
 10
102.611547
 20
231.623949
 30
0.0
  0
VERTEX
  8
ITEM_50
 10
102.611547
 20
233.622095
 30
0.0
 42
0.414214
  0
VERTEX
  8
ITEM_50
 10
101.111547
 20
235.122095
 30
0.0
  0
VERTEX
  8
ITEM_50
 10
90.69813399999999
 20
235.122095
 30
0.0
 42
0.426814
  0
VERTEX
  8
ITEM_50
 10
86.613402
 20
231.037362
 30
0.0
  0
VERTEX
  8
ITEM_50
 10
86.61313299999999
 20
220.6239879999999
 30
0.0
 42
0.414221
  0
VERTEX
  8
ITEM_50
 10
88.11313299999999
 20
219.123949
 30
0.0
  0
VERTEX
  8
ITEM_50
 10
90.111547
 20
219.123949
 30
0.0
 42
0.414214
  0
VERTEX
  8
ITEM_50
 10
91.111547
 20
220.123949
 30
0.0
  0
VERTEX
  8
ITEM_50
 10
91.111547
 20
221.623949
 30
0.0
 42
0.414214
  0
VERTEX
  8
ITEM_50
 10
90.611547
 20
222.123949
 30
0.0
  0
VERTEX
  8
ITEM_50
 10
89.111547
 20
222.123949
 30
0.0
 42
-0.414214
  0
VERTEX
  8
ITEM_50
 10
88.611547
 20
222.623949
 30
0.0
  0
VERTEX
  8
ITEM_50
 10
88.611547
 20
222.623949
 30
0.0
 42
-0.414214
  0
VERTEX
  8
ITEM_50
 10
91.111547
 20
225.123949
 30
0.0
  0
VERTEX
  8
ITEM_50
 10
92.41915899999999
 20
225.123949
 30
0.0
 42
-0.198912
  0
VERTEX
  8
ITEM_50
 10
95.954693
 20
223.6594829999999
 30
0.0
  0
VERTEX
  8
ITEM_50
 10
97.397081
 20
222.217095
 30
0.0
 42
-0.198912
  0
VERTEX
  8
ITEM_50
 10
98.861547
 20
218.6815609999999
 30
0.0
  0
VERTEX
  8
ITEM_50
 10
98.861547
 20
211.566337
 30
0.0
 42
-0.198912
  0
VERTEX
  8
ITEM_50
 10
97.397081
 20
208.0308029999999
 30
0.0
  0
VERTEX
  8
ITEM_50
 10
95.954693
 20
206.5884149999999
 30
0.0
 42
-0.198912
  0
VERTEX
  8
ITEM_50
 10
92.41915899999999
 20
205.123949
 30
0.0
  0
VERTEX
  8
ITEM_50
 10
91.111547
 20
205.123949
 30
0.0
 42
-0.414214
  0
VERTEX
  8
ITEM_50
 10
88.611547
 20
207.623949
 30
0.0
 42
-0.414214
  0
VERTEX
  8
ITEM_50
 10
89.111547
 20
208.123949
 30
0.0
  0
VERTEX
  8
ITEM_50
 10
90.611547
 20
208.123949
 30
0.0
 42
0.414214
  0
VERTEX
  8
ITEM_50
 10
91.111547
 20
208.623949
 30
0.0
  0
VERTEX
  8
ITEM_50
 10
91.111547
 20
210.123949
 30
0.0
 42
0.414214
  0
VERTEX
  8
ITEM_50
 10
90.111547
 20
211.123949
 30
0.0
  0
VERTEX
  8
ITEM_50
 10
88.11284999999999
 20
211.123949
 30
0.0
 42
0.414206
  0
VERTEX
  8
ITEM_50
 10
86.61284999999999
 20
209.6239879999999
 30
0.0
  0
VERTEX
  8
ITEM_50
 10
86.612102
 20
180.6239879999999
 30
0.0
 42
0.414221
  0
VERTEX
  8
ITEM_50
 10
88.112102
 20
179.123949
 30
0.0
  0
VERTEX
  8
ITEM_50
 10
90.111547
 20
179.123949
 30
0.0
 42
0.414214
  0
VERTEX
  8
ITEM_50
 10
91.111547
 20
180.123949
 30
0.0
  0
VERTEX
  8
ITEM_50
 10
91.111547
 20
181.623949
 30
0.0
 42
0.414214
  0
VERTEX
  8
ITEM_50
 10
90.611547
 20
182.123949
 30
0.0
  0
VERTEX
  8
ITEM_50
 10
89.111547
 20
182.123949
 30
0.0
 42
-0.414214
  0
VERTEX
  8
ITEM_50
 10
88.611547
 20
182.623949
 30
0.0
 42
-0.414214
  0
VERTEX
  8
ITEM_50
 10
91.111547
 20
185.123949
 30
0.0
  0
VERTEX
  8
ITEM_50
 10
92.41915899999999
 20
185.123949
 30
0.0
 42
-0.198912
  0
VERTEX
  8
ITEM_50
 10
95.954693
 20
183.6594829999999
 30
0.0
  0
VERTEX
  8
ITEM_50
 10
97.397081
 20
182.217095
 30
0.0
 42
-0.198912
  0
VERTEX
  8
ITEM_50
 10
98.861547
 20
178.681561
 30
0.0
  0
VERTEX
  8
ITEM_50
 10
98.861547
 20
171.566337
 30
0.0
 42
-0.198912
  0
VERTEX
  8
ITEM_50
 10
97.397081
 20
168.0308029999999
 30
0.0
  0
VERTEX
  8
ITEM_50
 10
95.954693
 20
166.5884149999999
 30
0.0
 42
-0.198912
  0
VERTEX
  8
ITEM_50
 10
92.41915899999999
 20
165.123949
 30
0.0
  0
VERTEX
  8
ITEM_50
 10
91.111547
 20
165.123949
 30
0.0
 42
-0.414214
  0
VERTEX
  8
ITEM_50
 10
88.611547
 20
167.623949
 30
0.0
 42
-0.414214
  0
VERTEX
  8
ITEM_50
 10
89.111547
 20
168.123949
 30
0.0
  0
VERTEX
  8
ITEM_50
 10
90.611547
 20
168.123949
 30
0.0
 42
0.414214
  0
VERTEX
  8
ITEM_50
 10
91.111547
 20
168.623949
 30
0.0
  0
VERTEX
  8
ITEM_50
 10
91.111547
 20
170.123949
 30
0.0
 42
0.414214
  0
VERTEX
  8
ITEM_50
 10
90.111547
 20
171.123949
 30
0.0
  0
VERTEX
  8
ITEM_50
 10
88.11181799999999
 20
171.123949
 30
0.0
 42
0.414206
  0
VERTEX
  8
ITEM_50
 10
86.61181799999999
 20
169.6239879999999
 30
0.0
  0
VERTEX
  8
ITEM_50
 10
86.611547
 20
159.123949
 30
0.0
  0
SEQEND
  8
ITEM_50
  0
POLYLINE
  8
ITEM_50
 66
     1
 10
0.0
 20
0.0
 30
0.0
  0
VERTEX
  8
ITEM_50
 10
119.611547
 20
162.174202
 30
0.0
 42
0.198912
  0
VERTEX
  8
ITEM_50
 10
118.147081
 20
165.709735
 30
0.0
  0
VERTEX
  8
ITEM_50
 10
115.8260129999999
 20
168.0308029999999
 30
0.0
 42
-0.198912
  0
VERTEX
  8
ITEM_50
 10
114.361547
 20
171.566337
 30
0.0
  0
VERTEX
  8
ITEM_50
 10
114.361547
 20
178.873949
 30
0.0
 42
-0.414214
  0
VERTEX
  8
ITEM_50
 10
115.361547
 20
179.873949
 30
0.0
  0
VERTEX
  8
ITEM_50
 10
129.611547
 20
179.873949
 30
0.0
 42
-0.414214
  0
VERTEX
  8
ITEM_50
 10
130.611547
 20
178.873949
 30
0.0
  0
VERTEX
  8
ITEM_50
 10
130.611547
 20
171.7391729999999
 30
0.0
 42
0.198912
  0
VERTEX
  8
ITEM_50
 10
130.9044409999999
 20
171.0320659999999
 30
0.0
  0
VERTEX
  8
ITEM_50
 10
132.8229649999999
 20
169.1135409999999
 30
0.0
 42
-0.414214
  0
VERTEX
  8
ITEM_50
 10
132.8229649999999
 20
165.578007
 30
0.0
  0
VERTEX
  8
ITEM_50
 10
126.1011399999999
 20
158.856182
 30
0.0
 42
-0.198912
  0
VERTEX
  8
ITEM_50
 10
124.3333729999999
 20
158.123949
 30
0.0
  0
VERTEX
  8
ITEM_50
 10
122.111547
 20
158.123949
 30
0.0
 42
-0.414214
  0
VERTEX
  8
ITEM_50
 10
119.611547
 20
160.623949
 30
0.0
  0
VERTEX
  8
ITEM_50
 10
119.611547
 20
162.2719219999999
 30
0.0
  0
SEQEND
  8
ITEM_50
  0
POLYLINE
  8
ITEM_50
 66
     1
 10
0.0
 20
0.0
 30
0.0
  0
VERTEX
  8
ITEM_50
 10
159.561295
 20
202.123949
 30
0.0
 42
-0.198912
  0
VERTEX
  8
ITEM_50
 10
156.025761
 20
203.5884149999999
 30
0.0
  0
VERTEX
  8
ITEM_50
 10
153.7046929999999
 20
205.9094829999999
 30
0.0
 42
0.198912
  0
VERTEX
  8
ITEM_50
 10
150.169159
 20
207.373949
 30
0.0
  0
VERTEX
  8
ITEM_50
 10
142.861547
 20
207.373949
 30
0.0
 42
0.414214
  0
VERTEX
  8
ITEM_50
 10
141.861547
 20
206.373949
 30
0.0
  0
VERTEX
  8
ITEM_50
 10
141.861547
 20
192.123949
 30
0.0
 42
0.414214
  0
VERTEX
  8
ITEM_50
 10
142.861547
 20
191.123949
 30
0.0
  0
VERTEX
  8
ITEM_50
 10
149.9963239999999
 20
191.123949
 30
0.0
 42
-0.198912
  0
VERTEX
  8
ITEM_50
 10
150.7034309999999
 20
190.831056
 30
0.0
  0
VERTEX
  8
ITEM_50
 10
152.621955
 20
188.912531
 30
0.0
 42
0.414214
  0
VERTEX
  8
ITEM_50
 10
156.1574889999999
 20
188.912531
 30
0.0
  0
VERTEX
  8
ITEM_50
 10
162.8793139999999
 20
195.6343569999999
 30
0.0
 42
0.198912
  0
VERTEX
  8
ITEM_50
 10
163.611547
 20
197.4021239999999
 30
0.0
  0
VERTEX
  8
ITEM_50
 10
163.611547
 20
199.623949
 30
0.0
 42
0.414214
  0
VERTEX
  8
ITEM_50
 10
161.111547
 20
202.123949
 30
0.0
  0
VERTEX
  8
ITEM_50
 10
159.4635739999999
 20
202.123949
 30
0.0
  0
SEQEND
  8
ITEM_50
  0
POINT
  8
ITEM_HILFE
 10
106.797929
 20
230.623949
 30
0.0
  0
POINT
  8
ITEM_HILFE
 10
146.7289969999999
 20
230.623949
 30
0.0
  0
POINT
  8
ITEM_HILFE
 10
162.111547
 20
215.260904
 30
0.0
  0
POINT
  8
ITEM_HILFE
 10
91.111547
 20
215.260904
 30
0.0
  0
POINT
  8
ITEM_HILFE
 10
106.797929
 20
159.624026
 30
0.0
  0
POINT
  8
ITEM_HILFE
 10
91.111547
 20
174.9870719999999
 30
0.0
  0
POINT
  8
ITEM_HILFE
 10
143.4295669999999
 20
178.3059289999999
 30
0.0
  0
POLYLINE
  8
ITEM_50
 66
     1
 10
0.0
 20
0.0
 30
0.0
 70
     1
  0
VERTEX
  8
ITEM_50
 10
122.111547
 20
231.123949
 30
0.0
  0
VERTEX
  8
ITEM_50
 10
131.111547
 20
231.123949
 30
0.0
 42
-0.414214
  0
VERTEX
  8
ITEM_50
 10
133.611547
 20
228.623949
 30
0.0
  0
VERTEX
  8
ITEM_50
 10
133.611547
 20
228.0736959999999
 30
0.0
 42
0.198912
  0
VERTEX
  8
ITEM_50
 10
135.0760129999999
 20
224.5381629999999
 30
0.0
  0
VERTEX
  8
ITEM_50
 10
137.397081
 20
222.217095
 30
0.0
 42
-0.198912
  0
VERTEX
  8
ITEM_50
 10
138.861547
 20
218.6815609999999
 30
0.0
  0
VERTEX
  8
ITEM_50
 10
138.861547
 20
192.425987
 30
0.0
 42
-0.198912
  0
VERTEX
  8
ITEM_50
 10
137.397081
 20
188.890453
 30
0.0
  0
VERTEX
  8
ITEM_50
 10
132.845043
 20
184.3384149999999
 30
0.0
 42
-0.198912
  0
VERTEX
  8
ITEM_50
 10
129.309509
 20
182.873949
 30
0.0
  0
VERTEX
  8
ITEM_50
 10
103.0539359999999
 20
182.873949
 30
0.0
 42
-0.198912
  0
VERTEX
  8
ITEM_50
 10
99.518402
 20
184.3384149999999
 30
0.0
  0
VERTEX
  8
ITEM_50
 10
97.19733399999999
 20
186.6594829999999
 30
0.0
 42
0.198912
  0
VERTEX
  8
ITEM_50
 10
93.66179999999999
 20
188.123949
 30
0.0
  0
VERTEX
  8
ITEM_50
 10
93.111547
 20
188.123949
 30
0.0
 42
-0.414214
  0
VERTEX
  8
ITEM_50
 10
90.611547
 20
190.623949
 30
0.0
  0
VERTEX
  8
ITEM_50
 10
90.611547
 20
199.623949
 30
0.0
 42
-0.414214
  0
VERTEX
  8
ITEM_50
 10
93.111547
 20
202.123949
 30
0.0
  0
VERTEX
  8
ITEM_50
 10
93.66179999999999
 20
202.123949
 30
0.0
 42
0.198912
  0
VERTEX
  8
ITEM_50
 10
97.19733399999999
 20
203.5884149999999
 30
0.0
  0
VERTEX
  8
ITEM_50
 10
99.518402
 20
205.9094829999999
 30
0.0
 42
-0.198912
  0
VERTEX
  8
ITEM_50
 10
103.0539359999999
 20
207.373949
 30
0.0
  0
VERTEX
  8
ITEM_50
 10
110.1630629999999
 20
207.373949
 30
0.0
 42
0.198912
  0
VERTEX
  8
ITEM_50
 10
110.8701689999999
 20
207.666842
 30
0.0
  0
VERTEX
  8
ITEM_50
 10
114.068654
 20
210.865327
 30
0.0
 42
0.198912
  0
VERTEX
  8
ITEM_50
 10
114.361547
 20
211.5724339999999
 30
0.0
  0
VERTEX
  8
ITEM_50
 10
114.361547
 20
218.6815609999999
 30
0.0
 42
-0.198912
  0
VERTEX
  8
ITEM_50
 10
115.8260129999999
 20
222.217095
 30
0.0
  0
VERTEX
  8
ITEM_50
 10
118.147081
 20
224.5381629999999
 30
0.0
 42
0.193716
  0
VERTEX
  8
ITEM_50
 10
119.611547
 20
227.9759759999999
 30
0.0
  0
VERTEX
  8
ITEM_50
 10
119.611547
 20
228.623949
 30
0.0
 42
-0.414214
  0
VERTEX
  8
ITEM_50
 10
122.111547
 20
231.123949
 30
0.0
  0
SEQEND
  8
ITEM_50
  0
POLYLINE
  8
ITEM_50
 66
     1
 10
0.0
 20
0.0
 30
0.0
 70
     1
  0
VERTEX
  8
ITEM_50
 10
94.81154699999999
 20
233.323949
 30
0.0
  0
VERTEX
  8
ITEM_50
 10
90.611547
 20
233.323949
 30
0.0
 42
0.414214
  0
VERTEX
  8
ITEM_50
 10
88.41154699999999
 20
231.123949
 30
0.0
  0
VERTEX
  8
ITEM_50
 10
88.41154699999999
 20
226.923949
 30
0.0
  0
VERTEX
  8
ITEM_50
 10
94.81154699999999
 20
226.923949
 30
0.0
  0
SEQEND
  8
ITEM_50
  0
POLYLINE
  8
ITEM_50
 66
     1
 10
0.0
 20
0.0
 30
0.0
 70
     1
  0
VERTEX
  8
ITEM_50
 10
94.81154699999999
 20
156.9240259999999
 30
0.0
  0
VERTEX
  8
ITEM_50
 10
90.611547
 20
156.9240259999999
 30
0.0
 42
-0.414214
  0
VERTEX
  8
ITEM_50
 10
88.41154699999999
 20
159.124026
 30
0.0
  0
VERTEX
  8
ITEM_50
 10
88.41154699999999
 20
163.324026
 30
0.0
  0
VERTEX
  8
ITEM_50
 10
94.81154699999999
 20
163.324026
 30
0.0
  0
SEQEND
  8
ITEM_50
  0
POLYLINE
  8
ITEM_50
 66
     1
 10
0.0
 20
0.0
 30
0.0
 70
     1
  0
VERTEX
  8
ITEM_50
 10
158.4115469999999
 20
233.323949
 30
0.0
  0
VERTEX
  8
ITEM_50
 10
162.611547
 20
233.323949
 30
0.0
 42
-0.414214
  0
VERTEX
  8
ITEM_50
 10
164.8115469999999
 20
231.123949
 30
0.0
  0
VERTEX
  8
ITEM_50
 10
164.8115469999999
 20
226.923949
 30
0.0
  0
VERTEX
  8
ITEM_50
 10
158.4115469999999
 20
226.923949
 30
0.0
  0
SEQEND
  8
ITEM_50
  0
LINE
  8
ITEM_50
 10
191.6096929999999
 20
235.122095
 30
0.0
 11
192.6096929999999
 21
235.122095
 31
0.0
  0
LINE
  8
ITEM_50
 10
191.6096929999999
 20
155.123949
 30
0.0
 11
191.6096929999999
 21
235.122095
 31
0.0
  0
LINE
  8
ITEM_50
 10
191.6096929999999
 20
155.123949
 30
0.0
 11
192.6096929999999
 21
155.123949
 31
0.0
  0
LINE
  8
ITEM_50
 10
192.6096929999999
 20
155.123949
 30
0.0
 11
192.6096929999999
 21
235.122095
 31
0.0
  0
LINE
  8
ITEM_50
 10
191.6096929999999
 20
219.123949
 30
0.0
 11
192.6096929999999
 21
219.123949
 31
0.0
  0
LINE
  8
ITEM_50
 10
191.6096929999999
 20
211.123949
 30
0.0
 11
192.6096929999999
 21
211.123949
 31
0.0
  0
LINE
  8
ITEM_50
 10
191.6096929999999
 20
179.122095
 30
0.0
 11
192.6096929999999
 21
179.122095
 31
0.0
  0
LINE
  8
ITEM_50
 10
191.6096929999999
 20
171.122095
 30
0.0
 11
192.6096929999999
 21
171.122095
 31
0.0
  0
LINE
  8
ITEM_50
 10
86.613402
 20
259.122095
 30
0.0
 11
86.613402
 21
260.122095
 31
0.0
  0
LINE
  8
ITEM_50
 10
166.6096929999999
 20
260.122095
 30
0.0
 11
86.613402
 21
260.122095
 31
0.0
  0
LINE
  8
ITEM_50
 10
166.6096929999999
 20
259.122095
 30
0.0
 11
166.6096929999999
 21
260.122095
 31
0.0
  0
LINE
  8
ITEM_50
 10
166.6096929999999
 20
259.122095
 30
0.0
 11
86.613402
 21
259.122095
 31
0.0
  0
LINE
  8
ITEM_50
 10
102.611547
 20
259.122095
 30
0.0
 11
102.611547
 21
260.122095
 31
0.0
  0
LINE
  8
ITEM_50
 10
110.611547
 20
259.122095
 30
0.0
 11
110.611547
 21
260.122095
 31
0.0
  0
LINE
  8
ITEM_50
 10
149.439975
 20
259.122095
 30
0.0
 11
149.439975
 21
260.122095
 31
0.0
  0
LINE
  8
ITEM_50
 10
143.7831199999999
 20
259.122095
 30
0.0
 11
143.7831199999999
 21
260.122095
 31
0.0
  0
ENDSEC
  0
EOF
